0
SECTION
2
HEADER
9
$INSUNITS
70
1
9
$ACADVER
1
AC1014
9
$HANDSEED
5
FFFF
0
ENDSEC
0
SECTION
2
TABLES
0
TABLE
2
VPORT
5
8
100
AcDbSymbolTable
0
ENDTAB
0
TABLE
2
LTYPE
5
5
100
AcDbSymbolTable
0
LTYPE
5
14
100
AcDbSymbolTableRecord
100
AcDbLinetypeTableRecord
2
BYBLOCK
70
0
0
LTYPE
5
15
100
AcDbSymbolTableRecord
100
AcDbLinetypeTableRecord
2
BYLAYER
70
0
0
ENDTAB
0
TABLE
2
LAYER
5
2
100
AcDbSymbolTable
70
2
0
LAYER
5
50
100
AcDbSymbolTableRecord
100
AcDbLayerTableRecord
2
0
70
0
6
CONTINUOUS
0
ENDTAB
0
TABLE
2
STYLE
5
3
100
AcDbSymbolTable
70
1
0
STYLE
5
11
100
AcDbSymbolTableRecord
100
AcDbTextStyleTableRecord
2
STANDARD
70
0
0
ENDTAB
0
TABLE
2
VIEW
5
6
100
AcDbSymbolTable
70
0
0
ENDTAB
0
TABLE
2
UCS
5
7
100
AcDbSymbolTable
70
0
0
ENDTAB
0
TABLE
2
APPID
5
9
100
AcDbSymbolTable
70
2
0
APPID
5
12
100
AcDbSymbolTableRecord
100
AcDbRegAppTableRecord
2
ACAD
70
0
0
ENDTAB
0
TABLE
2
DIMSTYLE
5
A
100
AcDbSymbolTable
70
1
0
ENDTAB
0
TABLE
2
BLOCK_RECORD
5
1
100
AcDbSymbolTable
70
1
0
BLOCK_RECORD
5
1F
100
AcDbSymbolTableRecord
100
AcDbBlockTableRecord
2
*MODEL_SPACE
0
BLOCK_RECORD
5
1B
100
AcDbSymbolTableRecord
100
AcDbBlockTableRecord
2
*PAPER_SPACE
0
ENDTAB
0
ENDSEC
0
SECTION
2
BLOCKS
0
BLOCK
5
20
100
AcDbEntity
100
AcDbBlockBegin
2
*MODEL_SPACE
0
ENDBLK
5
21
100
AcDbEntity
100
AcDbBlockEnd
0
BLOCK
5
1C
100
AcDbEntity
100
AcDbBlockBegin
2
*PAPER_SPACE
0
ENDBLK
5
1D
100
AcDbEntity
100
AcDbBlockEnd
0
ENDSEC
0
SECTION
2
ENTITIES
0
ARC
5
100
100
AcDbEntity
8
0
100
AcDbCircle
10
-38.224747234052948
20
-33.10205560437651
30
0
40
0.12500000000000069
100
AcDbArc
50
44.999999999988482
51
224.99999999998619
0
LINE
5
101
100
AcDbEntity
8
0
100
AcDbLine
10
-38.136358886404608
20
-33.013667256728205
30
0
11
-36.156578943664584
21
-33.013667256728205
31
0
0
ARC
5
102
100
AcDbEntity
8
0
100
AcDbCircle
10
-36.068190596016244
20
-33.10205560437651
30
5.9937274758602935e-48
40
0.12500000000000069
100
AcDbArc
50
-45
51
135.00000000001151
0
LINE
5
103
100
AcDbEntity
8
0
100
AcDbLine
10
-35.979802248367925
20
-33.190443952024829
30
1.0911074280306519e-46
11
-35.979802248367932
21
-33.627840485074664
31
0
0
LINE
5
104
100
AcDbEntity
8
0
100
AcDbLine
10
-35.979802248367932
20
-33.627840485074664
30
0
11
-32.979802248367932
21
-33.627840485074664
31
0
0
LINE
5
105
100
AcDbEntity
8
0
100
AcDbLine
10
-32.979802248367932
20
-33.627840485074664
30
0
11
-32.979802248367932
21
-33.190443952024815
31
0
0
ARC
5
106
100
AcDbEntity
8
0
100
AcDbCircle
10
-32.891413900719613
20
-33.102055604376503
30
1.2189490709333856e-47
40
0.12499999999999278
100
AcDbArc
50
44.999999999988482
51
224.99999999999767
0
LINE
5
107
100
AcDbEntity
8
0
100
AcDbLine
10
-32.803025553071279
20
-33.013667256728205
30
-3.8518598887744157e-34
11
-29.871468915034605
21
-33.013667256728205
31
0
0
LINE
5
108
100
AcDbEntity
8
0
100
AcDbLine
10
-29.871468915034605
20
-33.013667256728205
30
0
11
-29.871468915034605
21
-24.748777285358173
31
0
0
ARC
5
109
100
AcDbEntity
8
0
100
AcDbCircle
10
-29.783080567386282
20
-24.66038893770985
30
0
40
0.12500000000000069
100
AcDbArc
50
44.999999999994245
51
225
0
LINE
5
110
100
AcDbEntity
8
0
100
AcDbLine
10
-29.694692219737956
20
-24.572000590061542
30
0
11
-29.257295686688146
21
-24.572000590061542
31
0
0
LINE
5
111
100
AcDbEntity
8
0
100
AcDbLine
10
-29.257295686688146
20
-24.572000590061542
30
0
11
-29.257295686688146
21
-21.572000590061553
31
0
0
LINE
5
112
100
AcDbEntity
8
0
100
AcDbLine
10
-29.257295686688146
20
-21.572000590061553
30
0
11
-29.694692219737977
21
-21.572000590061538
31
0
0
ARC
5
113
100
AcDbEntity
8
0
100
AcDbCircle
10
-29.783080567386282
20
-21.483612242413209
30
2.9968637379301468e-48
40
0.1249999999999987
100
AcDbArc
50
135.0000000000023
51
314.99999999999193
0
LINE
5
114
100
AcDbEntity
8
0
100
AcDbLine
10
-29.871468915034605
20
-21.395223894764893
30
9.136799257152732e-47
11
-29.871468915034598
21
-13.860457075384431
31
0
0
ARC
5
115
100
AcDbEntity
8
0
100
AcDbCircle
10
-29.783080567386282
20
-13.772068727736121
30
0
40
0.1249999999999987
100
AcDbArc
50
44.999999999997115
51
224.99999999999827
0
LINE
5
116
100
AcDbEntity
8
0
100
AcDbLine
10
-29.694692219737959
20
-13.683680380087807
30
0
11
-29.257295686688142
21
-13.683680380087811
31
0
0
LINE
5
117
100
AcDbEntity
8
0
100
AcDbLine
10
-29.257295686688142
20
-13.683680380087811
30
0
11
-29.257295686688142
21
-10.683680380087809
31
0
0
LINE
5
118
100
AcDbEntity
8
0
100
AcDbLine
10
-29.257295686688142
20
-10.683680380087809
30
0
11
-29.694692219737966
21
-10.683680380087809
31
0
0
ARC
5
119
100
AcDbEntity
8
0
100
AcDbCircle
10
-29.783080567386282
20
-10.595292032439486
30
0
40
0.12499999999999772
100
AcDbArc
50
134.99999999999943
51
314.99999999999773
0
LINE
5
120
100
AcDbEntity
8
0
100
AcDbLine
10
-29.871468915034598
20
-10.506903684791169
30
0
11
-29.871468915034598
21
-2.2420137134211435
31
0
0
LINE
5
121
100
AcDbEntity
8
0
100
AcDbLine
10
-29.871468915034598
20
-2.2420137134211435
30
0
11
-32.803025553071308
21
-2.2420137134211364
31
0
0
ARC
5
122
100
AcDbEntity
8
0
100
AcDbCircle
10
-32.891413900719613
20
-2.1536253657728155
30
-7.7447040418419527e-49
40
0.12499999999999846
100
AcDbArc
50
134.99999999999787
51
314.99999999999483
0
LINE
5
123
100
AcDbEntity
8
0
100
AcDbLine
10
-32.979802248367925
20
-2.0652370181244968
30
3.8518598887744148e-34
11
-32.979802248367932
21
-1.627840485074679
31
0
0
LINE
5
124
100
AcDbEntity
8
0
100
AcDbLine
10
-32.979802248367932
20
-1.627840485074679
30
0
11
-35.979802248367932
21
-1.627840485074679
31
0
0
LINE
5
125
100
AcDbEntity
8
0
100
AcDbLine
10
-35.979802248367932
20
-1.627840485074679
30
0
11
-35.979802248367932
21
-2.0652370181244986
31
0
0
ARC
5
126
100
AcDbEntity
8
0
100
AcDbCircle
10
-36.068190596016244
20
-2.1536253657728155
30
-9.9670973755879037e-48
40
0.12499999999999747
100
AcDbArc
50
-134.99999999999653
51
45.000000000001585
0
LINE
5
127
100
AcDbEntity
8
0
100
AcDbLine
10
-36.156578943664556
20
-2.2420137134211382
30
-3.8518598887741488e-34
11
-38.136358886404629
21
-2.2420137134211364
31
0
0
ARC
5
128
100
AcDbEntity
8
0
100
AcDbCircle
10
-38.224747234052934
20
-2.1536253657728142
30
-7.7447040418419527e-49
40
0.12500000000000144
100
AcDbArc
50
135.00000000000475
51
314.99999999999443
0
LINE
5
129
100
AcDbEntity
8
0
100
AcDbLine
10
-38.31313558170126
20
-2.0652370181245026
30
3.8518598887744148e-34
11
-38.31313558170126
21
-1.627840485074679
31
0
0
LINE
5
130
100
AcDbEntity
8
0
100
AcDbLine
10
-38.31313558170126
20
-1.627840485074679
30
0
11
-41.31313558170126
21
-1.627840485074679
31
0
0
LINE
5
131
100
AcDbEntity
8
0
100
AcDbLine
10
-41.31313558170126
20
-1.627840485074679
30
0
11
-41.31313558170126
21
-2.0652370181244932
31
0
0
ARC
5
132
100
AcDbEntity
8
0
100
AcDbCircle
10
-41.401523929349572
20
-2.1536253657728142
30
0
40
0.12499999999999846
100
AcDbArc
50
-134.99999999999613
51
45.000000000002878
0
LINE
5
133
100
AcDbEntity
8
0
100
AcDbLine
10
-41.489912276997885
20
-2.2420137134211382
30
0
11
-45.257295686688131
21
-2.2420137134211364
31
0
0
LINE
5
134
100
AcDbEntity
8
0
100
AcDbLine
10
-45.257295686688131
20
-2.2420137134211364
30
0
11
-45.257295686688146
21
-33.013667256728205
31
0
0
LINE
5
135
100
AcDbEntity
8
0
100
AcDbLine
10
-45.257295686688146
20
-33.013667256728205
30
0
11
-41.489912276997913
21
-33.013667256728205
31
0
0
ARC
5
136
100
AcDbEntity
8
0
100
AcDbCircle
10
-41.40152392934958
20
-33.10205560437651
30
0
40
0.12499999999999674
100
AcDbArc
50
-45
51
135.00000000000921
0
LINE
5
137
100
AcDbEntity
8
0
100
AcDbLine
10
-41.313135581701268
20
-33.190443952024822
30
0
11
-41.313135581701275
21
-33.627840485074664
31
0
0
LINE
5
138
100
AcDbEntity
8
0
100
AcDbLine
10
-41.313135581701275
20
-33.627840485074664
30
0
11
-38.313135581701268
21
-33.627840485074664
31
0
0
LINE
5
139
100
AcDbEntity
8
0
100
AcDbLine
10
-38.313135581701268
20
-33.627840485074664
30
0
11
-38.313135581701289
21
-33.190443952024808
31
0
0
ARC
5
140
100
AcDbEntity
8
0
100
AcDbCircle
10
-43.940560882346908
20
-13.706118804093022
30
0
40
0.12499999999999278
100
AcDbArc
50
134.99999999999827
51
314.99999999999881
0
LINE
5
141
100
AcDbEntity
8
0
100
AcDbLine
10
-44.02894922999522
20
-13.617730456444704
30
0
11
-44.028949229995227
21
-10.971283847037977
31
0
0
ARC
5
142
100
AcDbEntity
8
0
100
AcDbCircle
10
-43.940560882346901
20
-10.88289549938966
30
0
40
0.12500000000000069
100
AcDbArc
50
44.999999999998849
51
224.9999999999971
0
LINE
5
143
100
AcDbEntity
8
0
100
AcDbLine
10
-43.852172534698582
20
-10.794507151741344
30
0
11
-43.591552696945399
21
-10.794507151741344
31
0
0
ARC
5
144
100
AcDbEntity
8
0
100
AcDbCircle
10
-43.50316434929708
20
-10.882895499389658
30
0
40
0.12499999999999772
100
AcDbArc
50
-45.00000000000346
51
135.00000000000173
0
LINE
5
145
100
AcDbEntity
8
0
100
AcDbLine
10
-43.414776001648768
20
-10.971283847037981
30
0
11
-43.414776001648768
21
-13.617730456444697
31
0
0
ARC
5
146
100
AcDbEntity
8
0
100
AcDbCircle
10
-43.50316434929708
20
-13.706118804093018
30
0
40
0.12500000000000069
100
AcDbArc
50
-134.99999999999253
51
45.000000000002878
0
LINE
5
147
100
AcDbEntity
8
0
100
AcDbLine
10
-43.591552696945385
20
-13.794507151741346
30
0
11
-43.852172534698596
21
-13.794507151741337
31
0
0
ARC
5
148
100
AcDbEntity
8
0
100
AcDbCircle
10
-43.940560882346901
20
-24.372785470759666
30
0
40
0.12499999999999674
100
AcDbArc
50
135.0000000000058
51
315.00000000000227
0
LINE
5
149
100
AcDbEntity
8
0
100
AcDbLine
10
-44.028949229995227
20
-24.284397123111358
30
0
11
-44.028949229995227
21
-21.63795051370462
31
0
0
ARC
5
150
100
AcDbEntity
8
0
100
AcDbCircle
10
-43.940560882346901
20
-21.549562166056308
30
-3.3672626268878053e-50
40
0.12499999999999674
100
AcDbArc
50
44.999999999996547
51
224.99999999999537
0
LINE
5
151
100
AcDbEntity
8
0
100
AcDbLine
10
-43.852172534698582
20
-21.461173818408
30
-3.8518598887744148e-34
11
-43.591552696945399
21
-21.461173818408
31
0
0
ARC
5
152
100
AcDbEntity
8
0
100
AcDbCircle
10
-43.503164349297073
20
-21.549562166056308
30
0
40
0.12499999999999474
100
AcDbArc
50
-45.000000000002288
51
135.0000000000058
0
LINE
5
153
100
AcDbEntity
8
0
100
AcDbLine
10
-43.414776001648761
20
-21.637950513704627
30
0
11
-43.414776001648768
21
-24.284397123111347
31
0
0
ARC
5
154
100
AcDbEntity
8
0
100
AcDbCircle
10
-43.50316434929708
20
-24.372785470759666
30
0
40
0.12500000000000069
100
AcDbArc
50
-134.99999999999079
51
45.000000000002302
0
LINE
5
155
100
AcDbEntity
8
0
100
AcDbLine
10
-43.591552696945385
20
-24.461173818408
30
0
11
-43.852172534698582
21
-24.461173818407978
31
0
0
ENDSEC
0
SECTION
2
OBJECTS
0
DICTIONARY
5
C
100
AcDbDictionary
3
ACAD_GROUP
350
D
3
ACAD_MLINESTYLE
350
17
0
DICTIONARY
5
D
100
AcDbDictionary
0
DICTIONARY
5
1A
330
C
100
AcDbDictionary
0
DICTIONARY
5
17
100
AcDbDictionary
0
ENDSEC
0
EOF
